ISO-10303-21;
HEADER;
FILE_DESCRIPTION (( 'STEP AP203' ),
    '1' );
FILE_NAME ('Q-OZHWP-R2-25.4-1030-M.STEP',
    '2020-12-22T09:17:52',
    ( '' ),
    ( '' ),
    'SwSTEP 2.0',
    'SolidWorks 2020',
    '' );
FILE_SCHEMA (( 'CONFIG_CONTROL_DESIGN' ));
ENDSEC;

DATA;
#1 = CARTESIAN_POINT ( 'NONE',  ( -3.000000000000001776, 0.000000000000000000, 0.000000000000000000 ) ) ;
#2 = FACE_OUTER_BOUND ( 'NONE', #158, .T. ) ;
#3 = AXIS2_PLACEMENT_3D ( 'NONE', #83, #127, #93 ) ;
#4 = APPLICATION_PROTOCOL_DEFINITION ( 'international standard', 'config_control_design', 1994, #165 ) ;
#5 = CC_DESIGN_PERSON_AND_ORGANIZATION_ASSIGNMENT ( #151, #7, ( #133 ) ) ;
#6 = ORGANIZATION ( 'UNSPECIFIED', 'UNSPECIFIED', '' ) ;
#7 = PERSON_AND_ORGANIZATION_ROLE ( 'design_owner' ) ;
#8 = ORIENTED_EDGE ( 'NONE', *, *, #153, .T. ) ;
#9 = CALENDAR_DATE ( 2020, 22, 12 ) ;
#10 = AXIS2_PLACEMENT_3D ( 'NONE', #56, #103, #12 ) ;
#11 = VECTOR ( 'NONE', #140, 1000.000000000000000 ) ;
#12 = DIRECTION ( 'NONE',  ( 0.000000000000000000, 0.000000000000000000, 1.000000000000000000 ) ) ;
#13 = CC_DESIGN_DATE_AND_TIME_ASSIGNMENT ( #97, #89, ( #157 ) ) ;
#14 = CARTESIAN_POINT ( 'NONE',  ( -3.000000000000000000, 0.000000000000000000, 0.000000000000000000 ) ) ;
#15 = CARTESIAN_POINT ( 'NONE',  ( 3.000000000000000888, 12.69999999999999929, 0.000000000000000000 ) ) ;
#16 = DATE_TIME_ROLE ( 'creation_date' ) ;
#17 = SHAPE_DEFINITION_REPRESENTATION ( #61, #42 ) ;
#18 = APPLICATION_CONTEXT ( 'configuration controlled 3d designs of mechanical parts and assemblies' ) ;
#19 = EDGE_CURVE ( 'NONE', #142, #126, #113, .T. ) ;
#20 = VERTEX_POINT ( 'NONE', #175 ) ;
#21 = APPROVAL ( #63, 'UNSPECIFIED' ) ;
#22 = APPROVAL_STATUS ( 'not_yet_approved' ) ;
#23 = EDGE_LOOP ( 'NONE', ( #8, #156 ) ) ;
#24 = CC_DESIGN_APPROVAL ( #149, ( #157 ) ) ;
#25 = EDGE_CURVE ( 'NONE', #142, #91, #50, .T. ) ;
#26 = MANIFOLD_SOLID_BREP ( 'Ðý×', #29 ) ;
#27 = APPROVAL_PERSON_ORGANIZATION ( #64, #21, #55 ) ;
#28 = FACE_OUTER_BOUND ( 'NONE', #23, .T. ) ;
#29 = CLOSED_SHELL ( 'NONE', ( #39, #122, #174, #131 ) ) ;
#30 = CARTESIAN_POINT ( 'NONE',  ( -3.000000000000000000, 0.000000000000000000, 12.69999999999999929 ) ) ;
#31 = DIRECTION ( 'NONE',  ( 0.000000000000000000, 0.000000000000000000, -1.000000000000000000 ) ) ;
#32 = PRODUCT_DEFINITION ( 'UNKNOWN', '', #36, #164 ) ;
#33 = DIRECTION ( 'NONE',  ( 0.000000000000000000, 0.000000000000000000, 1.000000000000000000 ) ) ;
#34 = APPROVAL_ROLE ( '' ) ;
#35 = DATE_AND_TIME ( #120, #166 ) ;
#36 = PRODUCT_DEFINITION_FORMATION_WITH_SPECIFIED_SOURCE ( 'ANY', '', #133, .NOT_KNOWN. ) ;
#37 = PERSON_AND_ORGANIZATION ( #129, #6 ) ;
#38 = COORDINATED_UNIVERSAL_TIME_OFFSET ( 8, 0, .AHEAD. ) ;
#39 = ADVANCED_FACE ( 'NONE', ( #161 ), #69, .T. ) ;
#40 = EDGE_LOOP ( 'NONE', ( #57, #90 ) ) ;
#41 = EDGE_LOOP ( 'NONE', ( #65, #159, #77, #76 ) ) ;
#42 = ADVANCED_BREP_SHAPE_REPRESENTATION ( 'Q-OZHWP-R2-25.4-1030-M', ( #26, #134 ), #100 ) ;
#43 = MECHANICAL_CONTEXT ( 'NONE', #18, 'mechanical' ) ;
#44 = CARTESIAN_POINT ( 'NONE',  ( -3.000000000000001776, 0.000000000000000000, 0.000000000000000000 ) ) ;
#45 = LOCAL_TIME ( 17, 17, 52.00000000000000000, #99 ) ;
#46 =( LENGTH_UNIT ( ) NAMED_UNIT ( * ) SI_UNIT ( .MILLI., .METRE. ) );
#47 = LOCAL_TIME ( 17, 17, 52.00000000000000000, #109 ) ;
#48 = CC_DESIGN_PERSON_AND_ORGANIZATION_ASSIGNMENT ( #37, #137, ( #36 ) ) ;
#49 = PERSON_AND_ORGANIZATION_ROLE ( 'classification_officer' ) ;
#50 = CIRCLE ( 'NONE', #10, 12.69999999999999929 ) ;
#51 = APPROVAL_DATE_TIME ( #167, #21 ) ;
#52 = CC_DESIGN_PERSON_AND_ORGANIZATION_ASSIGNMENT ( #72, #154, ( #36 ) ) ;
#53 = PERSON_AND_ORGANIZATION_ROLE ( 'creator' ) ;
#54 = APPROVAL_PERSON_ORGANIZATION ( #102, #101, #66 ) ;
#55 = APPROVAL_ROLE ( '' ) ;
#56 = CARTESIAN_POINT ( 'NONE',  ( 3.000000000000001776, 0.000000000000000000, 0.000000000000000000 ) ) ;
#57 = ORIENTED_EDGE ( 'NONE', *, *, #139, .F. ) ;
#58 = DIRECTION ( 'NONE',  ( -1.000000000000000000, -0.000000000000000000, -0.000000000000000000 ) ) ;
#59 = CARTESIAN_POINT ( 'NONE',  ( 3.000000000000001776, 1.555301434917138433E-15, -12.69999999999999929 ) ) ;
#60 =( NAMED_UNIT ( * ) SI_UNIT ( $, .STERADIAN. ) SOLID_ANGLE_UNIT ( ) );
#61 = PRODUCT_DEFINITION_SHAPE ( 'NONE', 'NONE',  #32 ) ;
#62 = DIRECTION ( 'NONE',  ( 0.000000000000000000, 0.000000000000000000, 1.000000000000000000 ) ) ;
#63 = APPROVAL_STATUS ( 'not_yet_approved' ) ;
#64 = PERSON_AND_ORGANIZATION ( #129, #6 ) ;
#65 = ORIENTED_EDGE ( 'NONE', *, *, #139, .T. ) ;
#66 = APPROVAL_ROLE ( '' ) ;
#67 = DIRECTION ( 'NONE',  ( -1.000000000000000000, -0.000000000000000000, -0.000000000000000000 ) ) ;
#68 = EDGE_CURVE ( 'NONE', #126, #20, #71, .T. ) ;
#69 = CYLINDRICAL_SURFACE ( 'NONE', #84, 12.69999999999999929 ) ;
#70 = DIRECTION ( 'NONE',  ( -0.000000000000000000, 0.000000000000000000, 1.000000000000000000 ) ) ;
#71 = CIRCLE ( 'NONE', #170, 12.69999999999999929 ) ;
#72 = PERSON_AND_ORGANIZATION ( #129, #6 ) ;
#73 = AXIS2_PLACEMENT_3D ( 'NONE', #15, #146, #70 ) ;
#74 = CALENDAR_DATE ( 2020, 22, 12 ) ;
#75 = CC_DESIGN_DATE_AND_TIME_ASSIGNMENT ( #86, #16, ( #32 ) ) ;
#76 = ORIENTED_EDGE ( 'NONE', *, *, #141, .F. ) ;
#77 = ORIENTED_EDGE ( 'NONE', *, *, #153, .F. ) ;
#78 = CARTESIAN_POINT ( 'NONE',  ( -3.000000000000001776, 1.555301434917138433E-15, -12.69999999999999929 ) ) ;
#79 = APPROVAL_PERSON_ORGANIZATION ( #96, #149, #34 ) ;
#80 = CARTESIAN_POINT ( 'NONE',  ( 3.000000000000001776, 0.000000000000000000, 12.69999999999999929 ) ) ;
#81 =( NAMED_UNIT ( * ) PLANE_ANGLE_UNIT ( ) SI_UNIT ( $, .RADIAN. ) );
#82 = CC_DESIGN_PERSON_AND_ORGANIZATION_ASSIGNMENT ( #88, #49, ( #157 ) ) ;
#83 = CARTESIAN_POINT ( 'NONE',  ( 3.000000000000001776, 0.000000000000000000, 0.000000000000000000 ) ) ;
#84 = AXIS2_PLACEMENT_3D ( 'NONE', #14, #106, #94 ) ;
#85 = DATE_AND_TIME ( #114, #155 ) ;
#86 = DATE_AND_TIME ( #9, #45 ) ;
#87 = SECURITY_CLASSIFICATION_LEVEL ( 'unclassified' ) ;
#88 = PERSON_AND_ORGANIZATION ( #129, #6 ) ;
#89 = DATE_TIME_ROLE ( 'classification_date' ) ;
#90 = ORIENTED_EDGE ( 'NONE', *, *, #25, .F. ) ;
#91 = VERTEX_POINT ( 'NONE', #80 ) ;
#92 = LINE ( 'NONE', #30, #130 ) ;
#93 = DIRECTION ( 'NONE',  ( 0.000000000000000000, 0.000000000000000000, 1.000000000000000000 ) ) ;
#94 = DIRECTION ( 'NONE',  ( 0.000000000000000000, 0.000000000000000000, 1.000000000000000000 ) ) ;
#95 = FACE_OUTER_BOUND ( 'NONE', #40, .T. ) ;
#96 = PERSON_AND_ORGANIZATION ( #129, #6 ) ;
#97 = DATE_AND_TIME ( #74, #47 ) ;
#98 = CALENDAR_DATE ( 2020, 22, 12 ) ;
#99 = COORDINATED_UNIVERSAL_TIME_OFFSET ( 8, 0, .AHEAD. ) ;
#100 =( GEOMETRIC_REPRESENTATION_CONTEXT ( 3 ) GLOBAL_UNCERTAINTY_ASSIGNED_CONTEXT ( ( #117 ) ) GLOBAL_UNIT_ASSIGNED_CONTEXT ( ( #46, #81, #60 ) ) REPRESENTATION_CONTEXT ( 'NONE', 'WORKASPACE' ) );
#101 = APPROVAL ( #111, 'UNSPECIFIED' ) ;
#102 = PERSON_AND_ORGANIZATION ( #129, #6 ) ;
#103 = DIRECTION ( 'NONE',  ( -1.000000000000000000, -0.000000000000000000, -0.000000000000000000 ) ) ;
#104 = ORIENTED_EDGE ( 'NONE', *, *, #19, .F. ) ;
#105 = PLANE ( 'NONE',  #147 ) ;
#106 = DIRECTION ( 'NONE',  ( -1.000000000000000000, -0.000000000000000000, -0.000000000000000000 ) ) ;
#107 = CC_DESIGN_PERSON_AND_ORGANIZATION_ASSIGNMENT ( #124, #53, ( #32 ) ) ;
#108 = CARTESIAN_POINT ( 'NONE',  ( 0.000000000000000000, 0.000000000000000000, 0.000000000000000000 ) ) ;
#109 = COORDINATED_UNIVERSAL_TIME_OFFSET ( 8, 0, .AHEAD. ) ;
#110 = AXIS2_PLACEMENT_3D ( 'NONE', #116, #143, #148 ) ;
#111 = APPROVAL_STATUS ( 'not_yet_approved' ) ;
#112 = CC_DESIGN_SECURITY_CLASSIFICATION ( #157, ( #36 ) ) ;
#113 = LINE ( 'NONE', #171, #11 ) ;
#114 = CALENDAR_DATE ( 2020, 22, 12 ) ;
#115 = ORIENTED_EDGE ( 'NONE', *, *, #141, .T. ) ;
#116 = CARTESIAN_POINT ( 'NONE',  ( -3.000000000000000000, 0.000000000000000000, 0.000000000000000000 ) ) ;
#117 = UNCERTAINTY_MEASURE_WITH_UNIT (LENGTH_MEASURE( 1.000000000000000082E-05 ), #46, 'distance_accuracy_value', 'NONE');
#118 = DIRECTION ( 'NONE',  ( -1.000000000000000000, -0.000000000000000000, -0.000000000000000000 ) ) ;
#119 = DIRECTION ( 'NONE',  ( 0.000000000000000000, 0.000000000000000000, 1.000000000000000000 ) ) ;
#120 = CALENDAR_DATE ( 2020, 22, 12 ) ;
#121 = CIRCLE ( 'NONE', #173, 12.69999999999999929 ) ;
#122 = ADVANCED_FACE ( 'NONE', ( #2 ), #162, .T. ) ;
#123 = ORIENTED_EDGE ( 'NONE', *, *, #68, .F. ) ;
#124 = PERSON_AND_ORGANIZATION ( #129, #6 ) ;
#125 = ORIENTED_EDGE ( 'NONE', *, *, #25, .T. ) ;
#126 = VERTEX_POINT ( 'NONE', #78 ) ;
#127 = DIRECTION ( 'NONE',  ( -1.000000000000000000, -0.000000000000000000, -0.000000000000000000 ) ) ;
#128 = PLANE ( 'NONE',  #73 ) ;
#129 = PERSON ( 'UNSPECIFIED', 'UNSPECIFIED', 'UNSPECIFIED', ('UNSPECIFIED'), ('UNSPECIFIED'), ('UNSPECIFIED') ) ;
#130 = VECTOR ( 'NONE', #67, 1000.000000000000000 ) ;
#131 = ADVANCED_FACE ( 'NONE', ( #28 ), #105, .F. ) ;
#132 = CARTESIAN_POINT ( 'NONE',  ( -3.000000000000000888, 12.69999999999999929, 0.000000000000000000 ) ) ;
#133 = PRODUCT ( 'Q-OZHWP-R2-25.4-1030-M', 'Q-OZHWP-R2-25.4-1030-M', '', ( #43 ) ) ;
#134 = AXIS2_PLACEMENT_3D ( 'NONE', #108, #33, #160 ) ;
#135 = CC_DESIGN_APPROVAL ( #101, ( #36 ) ) ;
#136 = DIRECTION ( 'NONE',  ( 1.000000000000000000, 0.000000000000000000, 0.000000000000000000 ) ) ;
#137 = PERSON_AND_ORGANIZATION_ROLE ( 'design_supplier' ) ;
#138 = APPROVAL_DATE_TIME ( #35, #149 ) ;
#139 = EDGE_CURVE ( 'NONE', #91, #142, #150, .T. ) ;
#140 = DIRECTION ( 'NONE',  ( -1.000000000000000000, -0.000000000000000000, -0.000000000000000000 ) ) ;
#141 = EDGE_CURVE ( 'NONE', #91, #20, #92, .T. ) ;
#142 = VERTEX_POINT ( 'NONE', #59 ) ;
#143 = DIRECTION ( 'NONE',  ( -1.000000000000000000, -0.000000000000000000, -0.000000000000000000 ) ) ;
#144 = PRODUCT_RELATED_PRODUCT_CATEGORY ( 'detail', '', ( #133 ) ) ;
#145 = LOCAL_TIME ( 17, 17, 52.00000000000000000, #169 ) ;
#146 = DIRECTION ( 'NONE',  ( -1.000000000000000000, 0.000000000000000000, -0.000000000000000000 ) ) ;
#147 = AXIS2_PLACEMENT_3D ( 'NONE', #132, #136, #31 ) ;
#148 = DIRECTION ( 'NONE',  ( 0.000000000000000000, 0.000000000000000000, 1.000000000000000000 ) ) ;
#149 = APPROVAL ( #22, 'UNSPECIFIED' ) ;
#150 = CIRCLE ( 'NONE', #3, 12.69999999999999929 ) ;
#151 = PERSON_AND_ORGANIZATION ( #129, #6 ) ;
#152 = COORDINATED_UNIVERSAL_TIME_OFFSET ( 8, 0, .AHEAD. ) ;
#153 = EDGE_CURVE ( 'NONE', #20, #126, #121, .T. ) ;
#154 = PERSON_AND_ORGANIZATION_ROLE ( 'creator' ) ;
#155 = LOCAL_TIME ( 17, 17, 52.00000000000000000, #38 ) ;
#156 = ORIENTED_EDGE ( 'NONE', *, *, #68, .T. ) ;
#157 = SECURITY_CLASSIFICATION ( '', '', #87 ) ;
#158 = EDGE_LOOP ( 'NONE', ( #104, #125, #115, #123 ) ) ;
#159 = ORIENTED_EDGE ( 'NONE', *, *, #19, .T. ) ;
#160 = DIRECTION ( 'NONE',  ( 1.000000000000000000, 0.000000000000000000, 0.000000000000000000 ) ) ;
#161 = FACE_OUTER_BOUND ( 'NONE', #41, .T. ) ;
#162 = CYLINDRICAL_SURFACE ( 'NONE', #110, 12.69999999999999929 ) ;
#163 = APPLICATION_PROTOCOL_DEFINITION ( 'international standard', 'config_control_design', 1994, #18 ) ;
#164 = DESIGN_CONTEXT ( 'detailed design', #165, 'design' ) ;
#165 = APPLICATION_CONTEXT ( 'configuration controlled 3d designs of mechanical parts and assemblies' ) ;
#166 = LOCAL_TIME ( 17, 17, 52.00000000000000000, #152 ) ;
#167 = DATE_AND_TIME ( #98, #145 ) ;
#168 = APPROVAL_DATE_TIME ( #85, #101 ) ;
#169 = COORDINATED_UNIVERSAL_TIME_OFFSET ( 8, 0, .AHEAD. ) ;
#170 = AXIS2_PLACEMENT_3D ( 'NONE', #44, #118, #62 ) ;
#171 = CARTESIAN_POINT ( 'NONE',  ( -3.000000000000000000, 1.555301434917138433E-15, -12.69999999999999929 ) ) ;
#172 = CC_DESIGN_APPROVAL ( #21, ( #32 ) ) ;
#173 = AXIS2_PLACEMENT_3D ( 'NONE', #1, #58, #119 ) ;
#174 = ADVANCED_FACE ( 'NONE', ( #95 ), #128, .F. ) ;
#175 = CARTESIAN_POINT ( 'NONE',  ( -3.000000000000001776, 0.000000000000000000, 12.69999999999999929 ) ) ;
ENDSEC;
END-ISO-10303-21;
